ISO-10303-21;
HEADER;
/* Generated by software containing ST-Developer
 * from STEP Tools, Inc. (www.steptools.com) 
 */

FILE_DESCRIPTION(
/* description */ (''),
/* implementation_level */ '2;1');

FILE_NAME(
/* name */ 'H:\\Plan\\pi\X\E8ce\\ST79 boitier D.stp',
/* time_stamp */ '2017-10-05T11:05:47+02:00',
/* author */ ('Fir03'),
/* organization */ (''),
/* preprocessor_version */ 'ST-DEVELOPER v16.5',
/* originating_system */ 'Autodesk Inventor 2017',
/* authorisation */ '');

FILE_SCHEMA (('AUTOMOTIVE_DESIGN { 1 0 10303 214 3 1 1 }'));
ENDSEC;

DATA;
#10=MECHANICAL_DESIGN_GEOMETRIC_PRESENTATION_REPRESENTATION('',(#13),#269);
#11=SHAPE_REPRESENTATION_RELATIONSHIP('SRR','None',#278,#12);
#12=ADVANCED_BREP_SHAPE_REPRESENTATION('',(#14),#268);
#13=STYLED_ITEM('',(#287),#14);
#14=MANIFOLD_SOLID_BREP('Solide1',#149);
#15=PLANE('',#164);
#16=PLANE('',#168);
#17=PLANE('',#172);
#18=PLANE('',#174);
#19=PLANE('',#175);
#20=CYLINDRICAL_SURFACE('',#154,5.05);
#21=CYLINDRICAL_SURFACE('',#159,5.04999999999999);
#22=CYLINDRICAL_SURFACE('',#161,0.3);
#23=CYLINDRICAL_SURFACE('',#165,0.5);
#24=CYLINDRICAL_SURFACE('',#169,0.3);
#25=FACE_BOUND('',#50,.T.);
#26=FACE_BOUND('',#52,.T.);
#27=FACE_BOUND('',#54,.T.);
#28=FACE_BOUND('',#56,.T.);
#29=FACE_BOUND('',#58,.T.);
#30=FACE_BOUND('',#61,.T.);
#31=FACE_BOUND('',#63,.T.);
#32=FACE_BOUND('',#65,.T.);
#33=FACE_BOUND('',#68,.T.);
#34=FACE_BOUND('',#70,.T.);
#35=FACE_BOUND('',#72,.T.);
#36=FACE_OUTER_BOUND('',#49,.T.);
#37=FACE_OUTER_BOUND('',#51,.T.);
#38=FACE_OUTER_BOUND('',#53,.T.);
#39=FACE_OUTER_BOUND('',#55,.T.);
#40=FACE_OUTER_BOUND('',#57,.T.);
#41=FACE_OUTER_BOUND('',#59,.T.);
#42=FACE_OUTER_BOUND('',#60,.T.);
#43=FACE_OUTER_BOUND('',#62,.T.);
#44=FACE_OUTER_BOUND('',#64,.T.);
#45=FACE_OUTER_BOUND('',#66,.T.);
#46=FACE_OUTER_BOUND('',#67,.T.);
#47=FACE_OUTER_BOUND('',#69,.T.);
#48=FACE_OUTER_BOUND('',#71,.T.);
#49=EDGE_LOOP('',(#109));
#50=EDGE_LOOP('',(#110));
#51=EDGE_LOOP('',(#111));
#52=EDGE_LOOP('',(#112));
#53=EDGE_LOOP('',(#113));
#54=EDGE_LOOP('',(#114));
#55=EDGE_LOOP('',(#115));
#56=EDGE_LOOP('',(#116));
#57=EDGE_LOOP('',(#117));
#58=EDGE_LOOP('',(#118));
#59=EDGE_LOOP('',(#119));
#60=EDGE_LOOP('',(#120));
#61=EDGE_LOOP('',(#121));
#62=EDGE_LOOP('',(#122));
#63=EDGE_LOOP('',(#123));
#64=EDGE_LOOP('',(#124));
#65=EDGE_LOOP('',(#125));
#66=EDGE_LOOP('',(#126));
#67=EDGE_LOOP('',(#127));
#68=EDGE_LOOP('',(#128));
#69=EDGE_LOOP('',(#129));
#70=EDGE_LOOP('',(#130));
#71=EDGE_LOOP('',(#131));
#72=EDGE_LOOP('',(#132));
#73=CIRCLE('',#152,4.875);
#74=CIRCLE('',#153,5.05);
#75=CIRCLE('',#155,5.05);
#76=CIRCLE('',#157,5.04999999999999);
#77=CIRCLE('',#158,4.87499999999999);
#78=CIRCLE('',#160,5.05);
#79=CIRCLE('',#162,0.3);
#80=CIRCLE('',#163,0.3);
#81=CIRCLE('',#166,0.5);
#82=CIRCLE('',#167,0.5);
#83=CIRCLE('',#170,0.3);
#84=CIRCLE('',#171,0.3);
#85=VERTEX_POINT('',#230);
#86=VERTEX_POINT('',#232);
#87=VERTEX_POINT('',#235);
#88=VERTEX_POINT('',#238);
#89=VERTEX_POINT('',#240);
#90=VERTEX_POINT('',#243);
#91=VERTEX_POINT('',#246);
#92=VERTEX_POINT('',#248);
#93=VERTEX_POINT('',#252);
#94=VERTEX_POINT('',#254);
#95=VERTEX_POINT('',#258);
#96=VERTEX_POINT('',#260);
#97=EDGE_CURVE('',#85,#85,#73,.T.);
#98=EDGE_CURVE('',#86,#86,#74,.T.);
#99=EDGE_CURVE('',#87,#87,#75,.T.);
#100=EDGE_CURVE('',#88,#88,#76,.T.);
#101=EDGE_CURVE('',#89,#89,#77,.T.);
#102=EDGE_CURVE('',#90,#90,#78,.T.);
#103=EDGE_CURVE('',#91,#91,#79,.T.);
#104=EDGE_CURVE('',#92,#92,#80,.T.);
#105=EDGE_CURVE('',#93,#93,#81,.T.);
#106=EDGE_CURVE('',#94,#94,#82,.T.);
#107=EDGE_CURVE('',#95,#95,#83,.T.);
#108=EDGE_CURVE('',#96,#96,#84,.T.);
#109=ORIENTED_EDGE('',*,*,#97,.T.);
#110=ORIENTED_EDGE('',*,*,#98,.T.);
#111=ORIENTED_EDGE('',*,*,#99,.F.);
#112=ORIENTED_EDGE('',*,*,#98,.F.);
#113=ORIENTED_EDGE('',*,*,#100,.T.);
#114=ORIENTED_EDGE('',*,*,#101,.T.);
#115=ORIENTED_EDGE('',*,*,#102,.T.);
#116=ORIENTED_EDGE('',*,*,#100,.F.);
#117=ORIENTED_EDGE('',*,*,#103,.F.);
#118=ORIENTED_EDGE('',*,*,#104,.F.);
#119=ORIENTED_EDGE('',*,*,#103,.T.);
#120=ORIENTED_EDGE('',*,*,#105,.F.);
#121=ORIENTED_EDGE('',*,*,#106,.F.);
#122=ORIENTED_EDGE('',*,*,#105,.T.);
#123=ORIENTED_EDGE('',*,*,#104,.T.);
#124=ORIENTED_EDGE('',*,*,#107,.F.);
#125=ORIENTED_EDGE('',*,*,#108,.F.);
#126=ORIENTED_EDGE('',*,*,#107,.T.);
#127=ORIENTED_EDGE('',*,*,#97,.F.);
#128=ORIENTED_EDGE('',*,*,#101,.F.);
#129=ORIENTED_EDGE('',*,*,#99,.T.);
#130=ORIENTED_EDGE('',*,*,#108,.T.);
#131=ORIENTED_EDGE('',*,*,#102,.F.);
#132=ORIENTED_EDGE('',*,*,#106,.T.);
#133=TOROIDAL_SURFACE('',#151,4.85,0.2);
#134=TOROIDAL_SURFACE('',#156,4.84999999999999,0.2);
#135=TOROIDAL_SURFACE('',#173,5.,1.);
#136=ADVANCED_FACE('',(#36,#25),#133,.T.);
#137=ADVANCED_FACE('',(#37,#26),#20,.T.);
#138=ADVANCED_FACE('',(#38,#27),#134,.T.);
#139=ADVANCED_FACE('',(#39,#28),#21,.T.);
#140=ADVANCED_FACE('',(#40,#29),#22,.T.);
#141=ADVANCED_FACE('',(#41),#15,.T.);
#142=ADVANCED_FACE('',(#42,#30),#23,.T.);
#143=ADVANCED_FACE('',(#43,#31),#16,.T.);
#144=ADVANCED_FACE('',(#44,#32),#24,.T.);
#145=ADVANCED_FACE('',(#45),#17,.F.);
#146=ADVANCED_FACE('',(#46,#33),#135,.F.);
#147=ADVANCED_FACE('',(#47,#34),#18,.T.);
#148=ADVANCED_FACE('',(#48,#35),#19,.T.);
#149=CLOSED_SHELL('',(#136,#137,#138,#139,#140,#141,#142,#143,#144,#145,
#146,#147,#148));
#150=AXIS2_PLACEMENT_3D('placement',#228,#176,#177);
#151=AXIS2_PLACEMENT_3D('',#229,#178,#179);
#152=AXIS2_PLACEMENT_3D('',#231,#180,#181);
#153=AXIS2_PLACEMENT_3D('',#233,#182,#183);
#154=AXIS2_PLACEMENT_3D('',#234,#184,#185);
#155=AXIS2_PLACEMENT_3D('',#236,#186,#187);
#156=AXIS2_PLACEMENT_3D('',#237,#188,#189);
#157=AXIS2_PLACEMENT_3D('',#239,#190,#191);
#158=AXIS2_PLACEMENT_3D('',#241,#192,#193);
#159=AXIS2_PLACEMENT_3D('',#242,#194,#195);
#160=AXIS2_PLACEMENT_3D('',#244,#196,#197);
#161=AXIS2_PLACEMENT_3D('',#245,#198,#199);
#162=AXIS2_PLACEMENT_3D('',#247,#200,#201);
#163=AXIS2_PLACEMENT_3D('',#249,#202,#203);
#164=AXIS2_PLACEMENT_3D('',#250,#204,#205);
#165=AXIS2_PLACEMENT_3D('',#251,#206,#207);
#166=AXIS2_PLACEMENT_3D('',#253,#208,#209);
#167=AXIS2_PLACEMENT_3D('',#255,#210,#211);
#168=AXIS2_PLACEMENT_3D('',#256,#212,#213);
#169=AXIS2_PLACEMENT_3D('',#257,#214,#215);
#170=AXIS2_PLACEMENT_3D('',#259,#216,#217);
#171=AXIS2_PLACEMENT_3D('',#261,#218,#219);
#172=AXIS2_PLACEMENT_3D('',#262,#220,#221);
#173=AXIS2_PLACEMENT_3D('',#263,#222,#223);
#174=AXIS2_PLACEMENT_3D('',#264,#224,#225);
#175=AXIS2_PLACEMENT_3D('',#265,#226,#227);
#176=DIRECTION('axis',(0.,0.,1.));
#177=DIRECTION('refdir',(1.,0.,0.));
#178=DIRECTION('center_axis',(-1.,-1.83697019872103E-16,0.));
#179=DIRECTION('ref_axis',(-1.75876914792104E-16,1.,-5.93397199301848E-15));
#180=DIRECTION('center_axis',(1.,1.83697019872103E-16,0.));
#181=DIRECTION('ref_axis',(-1.8503717077086E-16,1.,-5.93397199301848E-15));
#182=DIRECTION('center_axis',(-1.,-1.83697019872103E-16,0.));
#183=DIRECTION('ref_axis',(-1.83697019872103E-16,1.,-5.93397199301848E-15));
#184=DIRECTION('center_axis',(1.,1.83697019872103E-16,0.));
#185=DIRECTION('ref_axis',(0.,1.,0.));
#186=DIRECTION('center_axis',(1.,1.83697019872103E-16,0.));
#187=DIRECTION('ref_axis',(0.,0.,-1.));
#188=DIRECTION('center_axis',(1.,1.83697019872103E-16,0.));
#189=DIRECTION('ref_axis',(0.,0.,-1.));
#190=DIRECTION('center_axis',(1.,1.83697019872103E-16,0.));
#191=DIRECTION('ref_axis',(1.85495183569798E-16,-1.,1.83697019872103E-16));
#192=DIRECTION('center_axis',(-1.,-1.83697019872103E-16,0.));
#193=DIRECTION('ref_axis',(2.27738056333366E-16,-1.,1.83697019872103E-16));
#194=DIRECTION('center_axis',(1.,1.83697019872103E-16,0.));
#195=DIRECTION('ref_axis',(0.,1.,0.));
#196=DIRECTION('center_axis',(1.,1.83697019872103E-16,0.));
#197=DIRECTION('ref_axis',(0.,0.,-1.));
#198=DIRECTION('center_axis',(-1.,-1.83697019872103E-16,0.));
#199=DIRECTION('ref_axis',(0.,0.,-1.));
#200=DIRECTION('center_axis',(-1.,-1.83697019872103E-16,0.));
#201=DIRECTION('ref_axis',(0.,0.,-1.));
#202=DIRECTION('center_axis',(1.,1.83697019872103E-16,0.));
#203=DIRECTION('ref_axis',(0.,0.,-1.));
#204=DIRECTION('center_axis',(-1.,-1.83697019872103E-16,0.));
#205=DIRECTION('ref_axis',(0.,0.,1.));
#206=DIRECTION('center_axis',(-1.,-1.83697019872103E-16,0.));
#207=DIRECTION('ref_axis',(0.,0.,-1.));
#208=DIRECTION('center_axis',(-1.,-1.83697019872103E-16,0.));
#209=DIRECTION('ref_axis',(0.,0.,-1.));
#210=DIRECTION('center_axis',(1.,1.83697019872103E-16,0.));
#211=DIRECTION('ref_axis',(0.,0.,-1.));
#212=DIRECTION('center_axis',(-1.,-1.83697019872103E-16,0.));
#213=DIRECTION('ref_axis',(0.,0.,1.));
#214=DIRECTION('center_axis',(1.,1.83697019872103E-16,0.));
#215=DIRECTION('ref_axis',(0.,0.,1.));
#216=DIRECTION('center_axis',(1.,1.83697019872103E-16,0.));
#217=DIRECTION('ref_axis',(0.,0.,1.));
#218=DIRECTION('center_axis',(-1.,-1.83697019872103E-16,0.));
#219=DIRECTION('ref_axis',(0.,0.,1.));
#220=DIRECTION('center_axis',(-1.,-1.83697019872103E-16,0.));
#221=DIRECTION('ref_axis',(0.,0.,1.));
#222=DIRECTION('center_axis',(1.,1.83697019872103E-16,0.));
#223=DIRECTION('ref_axis',(0.,0.,-1.));
#224=DIRECTION('center_axis',(1.,1.83697019872103E-16,0.));
#225=DIRECTION('ref_axis',(0.,0.,-1.));
#226=DIRECTION('center_axis',(-1.,-1.83697019872103E-16,0.));
#227=DIRECTION('ref_axis',(0.,0.,1.));
#228=CARTESIAN_POINT('',(0.,0.,0.));
#229=CARTESIAN_POINT('Origin',(-3.97348364730836,-7.2991710452108E-16,0.));
#230=CARTESIAN_POINT('',(-4.1719149956382,-4.875,2.83310981513807E-14));
#231=CARTESIAN_POINT('Origin',(-4.17191499563821,-7.66368351858476E-16,
0.));
#232=CARTESIAN_POINT('',(-3.97348364730836,-5.05,3.05850051983127E-14));
#233=CARTESIAN_POINT('Origin',(-3.97348364730836,-7.2991710452108E-16,0.));
#234=CARTESIAN_POINT('Origin',(19.4359282627126,3.57032210030828E-15,0.));
#235=CARTESIAN_POINT('',(22.3359282627126,5.05,0.));
#236=CARTESIAN_POINT('Origin',(22.3359282627126,4.10304345793738E-15,0.));
#237=CARTESIAN_POINT('Origin',(-6.35465982726649,-1.16733207256983E-15,
0.));
#238=CARTESIAN_POINT('',(-6.35465982726649,5.04999999999999,-3.09223316784706E-16));
#239=CARTESIAN_POINT('Origin',(-6.35465982726649,-1.16733207256983E-15,
0.));
#240=CARTESIAN_POINT('',(-6.15622847893665,4.87499999999999,-1.49253828646083E-15));
#241=CARTESIAN_POINT('Origin',(-6.15622847893665,-1.13088082523243E-15,
0.));
#242=CARTESIAN_POINT('Origin',(-6.31344634617338,-1.15976127891447E-15,
0.));
#243=CARTESIAN_POINT('',(-9.66407173728743,5.05,0.));
#244=CARTESIAN_POINT('Origin',(-9.66407173728743,-1.77526117796992E-15,
0.));
#245=CARTESIAN_POINT('Origin',(-12.1640717372874,-2.22203128544315E-15,
0.));
#246=CARTESIAN_POINT('',(-37.1640717372874,-6.7777173782713E-15,0.3));
#247=CARTESIAN_POINT('Origin',(-37.1640717372874,-6.81445678224572E-15,
0.));
#248=CARTESIAN_POINT('',(-12.1640717372874,-2.18529188146873E-15,0.3));
#249=CARTESIAN_POINT('Origin',(-12.1640717372874,-2.22203128544315E-15,
0.));
#250=CARTESIAN_POINT('Origin',(-37.1640717372874,-6.82096610110853E-15,
-1.51083078032629E-17));
#251=CARTESIAN_POINT('Origin',(-9.66407173728743,-1.77526117796992E-15,
0.));
#252=CARTESIAN_POINT('',(-12.1640717372874,-2.17327138769281E-15,0.5));
#253=CARTESIAN_POINT('Origin',(-12.1640717372874,-2.23450372765017E-15,
0.));
#254=CARTESIAN_POINT('',(-9.66407173728743,-1.71402883801255E-15,0.5));
#255=CARTESIAN_POINT('Origin',(-9.66407173728743,-1.77526117796992E-15,
0.));
#256=CARTESIAN_POINT('Origin',(-12.1640717372874,-2.25131841070524E-15,
-3.40147529293941E-17));
#257=CARTESIAN_POINT('Origin',(22.3359282627126,4.1155159001444E-15,0.));
#258=CARTESIAN_POINT('',(47.3359282627126,8.7446808009214E-15,-0.3));
#259=CARTESIAN_POINT('Origin',(47.3359282627126,8.70794139694698E-15,0.));
#260=CARTESIAN_POINT('',(22.3359282627126,4.15225530411882E-15,-0.3));
#261=CARTESIAN_POINT('Origin',(22.3359282627126,4.1155159001444E-15,0.));
#262=CARTESIAN_POINT('Origin',(47.3359282627126,8.72068671113479E-15,2.71549986086574E-17));
#263=CARTESIAN_POINT('Origin',(-5.16407173728743,-9.48624588545453E-16,
0.));
#264=CARTESIAN_POINT('Origin',(22.3359282627126,4.44089209850063E-15,0.));
#265=CARTESIAN_POINT('Origin',(-9.66407173728743,5.05,0.));
#266=UNCERTAINTY_MEASURE_WITH_UNIT(LENGTH_MEASURE(0.01),#270,
'DISTANCE_ACCURACY_VALUE',
'Maximum model space distance between geometric entities at asserted c
onnectivities');
#267=UNCERTAINTY_MEASURE_WITH_UNIT(LENGTH_MEASURE(1.E-6),#270,
'DISTANCE_ACCURACY_VALUE',
'Maximum model space distance between geometric entities at asserted c
onnectivities');
#268=(
GEOMETRIC_REPRESENTATION_CONTEXT(3)
GLOBAL_UNCERTAINTY_ASSIGNED_CONTEXT((#266))
GLOBAL_UNIT_ASSIGNED_CONTEXT((#270,#273,#271))
REPRESENTATION_CONTEXT('','3D')
);
#269=(
GEOMETRIC_REPRESENTATION_CONTEXT(3)
GLOBAL_UNCERTAINTY_ASSIGNED_CONTEXT((#267))
GLOBAL_UNIT_ASSIGNED_CONTEXT((#270,#273,#271))
REPRESENTATION_CONTEXT('','3D')
);
#270=(
LENGTH_UNIT()
NAMED_UNIT(*)
SI_UNIT(.MILLI.,.METRE.)
);
#271=(
NAMED_UNIT(*)
SI_UNIT($,.STERADIAN.)
SOLID_ANGLE_UNIT()
);
#272=DIMENSIONAL_EXPONENTS(0.,0.,0.,0.,0.,0.,0.);
#273=(
CONVERSION_BASED_UNIT('degree',#275)
NAMED_UNIT(#272)
PLANE_ANGLE_UNIT()
);
#274=(
NAMED_UNIT(*)
PLANE_ANGLE_UNIT()
SI_UNIT($,.RADIAN.)
);
#275=PLANE_ANGLE_MEASURE_WITH_UNIT(PLANE_ANGLE_MEASURE(0.01745329252),#274);
#276=SHAPE_DEFINITION_REPRESENTATION(#277,#278);
#277=PRODUCT_DEFINITION_SHAPE('',$,#280);
#278=SHAPE_REPRESENTATION('',(#150),#268);
#279=PRODUCT_DEFINITION_CONTEXT('part definition',#284,'design');
#280=PRODUCT_DEFINITION('ST79 boitier D','ST79 boitier D',#281,#279);
#281=PRODUCT_DEFINITION_FORMATION('',$,#286);
#282=PRODUCT_RELATED_PRODUCT_CATEGORY('ST79 boitier D','ST79 boitier D',
(#286));
#283=APPLICATION_PROTOCOL_DEFINITION('international standard',
'automotive_design',2009,#284);
#284=APPLICATION_CONTEXT(
'Core Data for Automotive Mechanical Design Process');
#285=PRODUCT_CONTEXT('part definition',#284,'mechanical');
#286=PRODUCT('ST79 boitier D','ST79 boitier D',$,(#285));
#287=PRESENTATION_STYLE_ASSIGNMENT((#288));
#288=SURFACE_STYLE_USAGE(.BOTH.,#289);
#289=SURFACE_SIDE_STYLE('',(#290));
#290=SURFACE_STYLE_FILL_AREA(#291);
#291=FILL_AREA_STYLE('',(#292));
#292=FILL_AREA_STYLE_COLOUR('',#293);
#293=COLOUR_RGB('',0.501960784313725,0.501960784313725,0.501960784313725);
ENDSEC;
END-ISO-10303-21;
